Basket Case – Green Day

Cours de guitare en vidéo

Comment jouer Basket Case de Green Day à la guitare

Voir vidéo du cours de basse pour apprendre Basket case

Les accords et tablatures sont dans l’article

Tablature Basket Case de Green day

  E5                B5               C#5
e----------------|----------------|----------------------|
B----------------|----------------|----------------------|
G----------------|----------------|----------------------|
D--9-9-9-9-9-9-9-|----------------|----------------------|
A--7-7-7-7-7-7-7-|--9-9-9-9-9-9-9-|-11-11-11-11-11-11-11-|
E----------------|--7-7-7-7-7-7-7-|--9--9--9--9--9--9--9-|
   x   x     x      x   x     x      x     x        x

'  Do you have the time.        To   lis-ten    to    me

   G#5             A5               E5
e----------------|----------------|----------------------|
B----------------|----------------|----------------------|
G----------------|----------------|----------------------|
D----------------|----------------|--9--9--9--9--9--9--9-|
A--6-6-6-6-6-6-6-|--7-7-7-7-7-7-7-|--7--7--7--7--7--7--7-|
E--4-4-4-4-4-4-4-|--5-5-5-5-5-5-5-|----------------------|
   x   x     x      x   x     x      x     x        x

   whine.      About nothing and     everything  all  at
   B5
e----------------
B----------------
G----------------
D----------------
A--9-9-9-9-9-9-9-
E--7-7-7-7-7-7-7-
   x   x     x

   once'

Play the intro once again with the words below :-

I am one of those
Melodramatic fools
Neurotic to the
bone no doubt about it.

A5              B5
    Sometimes I give myself the
E5
creeps.

A5               B5
    Sometimes my mind plays tricks on
E5
me.      It

A5               B5
all keeps adding up.       I

E         D        C#5
Think I'm cracking up.   Now am

A          B
I just paranoid, or am I just stoned.

The next bit is just

E(7th fret)  B  C#m  B  E(7th fret)  B  C#m

Les cours de guitare pour apprendre Green Day

21 Guns – Green Day
American Idiot – Green day
Basket Case – Green Day
Basket Case – Green Day (basse)
Boulevard of Broken Dreams – Green Day
Good Riddance – Green Day
Holiday – Green Day
Kill The DJ – Green Day
Know Your Enemy – Green Day
Oh Love On – Green Day
When I Come Around – Green Day