Hey Joe – Jimi Hendrix

Cours de guitare en vidéo

Comment jouer Hey Joe de Jimi Hendrix à la guitare

Le Backing Track de Hey joe pour vous aider à apprendre à jouer ce morceau se trouve ICI

 Paroles et accords de « Hey Joe » de Jimmy Hendrix

E--0----0--------------------------------------------------------
 B--3s5--3--------------------------------------------------------
 G----------4s2--0------------------------------------------------
 D------------------2-----4s5-----4s5-----4-----2-----------------
 A------------------2-----4s5-----4s5-----4-----2-----------------
 E---------------------0--------0------0-----0-------0-----0------

 E---------------------
 B---------------------
 G--------7-----7------
 D----7h9---------9----
 A---------------------
 E---------------------

  C     G  A         D                      E 

 Hey Joe. Where you goin' with that gun in your hand.
   ---------------------------------------------------
   ---------------------------------------------------
   -1-----4s5-----4s5-----4-----2---------------------
   -2-----4s5-----4s5-----4-----2---------------------
   -2-------------------------------------------------
   ---------------------------------------------------

  Said, Hey Joe. Where you goin' with that gun in your hand.
  I'm goin' down to shoot my old lady,
  you know I caugth her messin' round with another man.
  I'm goin' down to shoot my old lady,
  you know I caught her messin' round with another man.
  (Ain't that too cool.)

  Hey Joe. I heard you shot your woman down,
  you shot her down now.
  Hey Joe. I heard you shot your old woman down,
  you shot her down in the ground.
  Yes I did, I shot her,
  you know I caught her messin' round with another man.
  Oh yes I did i shot her,
  you know I caught my old lady messin round town.

Source boiteachansons.net