Sympathy for the Devil – The Rolling Stones

Cours de guitare en vidéo (apprendre à jouer Rolling Stones)

Comment jouer Sympathy for the Devil par les Rolling Stones à la guitare

Les paroles, les accords et les tablatures sont dans l’article. Vous trouverez également une vidéo pour apprendre le solo de Keith Richards

 Accords, paroles et tablatures de Sympathy for the Devil – Rolling Stones

E                        D                  A                E

Please allow me to introduce myself, I’m a man of wealth and taste

                          D                       A                         E

I’ve been around for long, long years I’ve stolen many a man’s soul and faith

              D                  A/C# A                E

I was around when Jesus Christ had His moment of doubt and pain

                D                 A/C# A                  E  Esus4 E

I made damn sure that Pilate washed his hands and sealed his fate

B                                     A E       A/E  E    

Pleased to meet you, hope you guess my name,

B                E/B B           A   E    Esus4  E

But what’s puzzling you, is the  nature of my game

              D                 A                            E

Stuck around St. Petersburg when I saw it was a time for a change

       D               A/C# A                E

Killed the Tsar and his ministers; Anastasia screamed in vain

        D                        A/C#   A

I rode a tank held a general’s rank when the blitzkrieg raged

       E             Esus4    E

And the bodies stank

 

B                                     A E       A/E  E    

Pleased to meet you, hope you guess my name, Oh    yeah

B                E/B B               E    A/E    E

Ah what’s puzzling you, is the nature of my game

E                                 D                            A/C# A                 E

I watched with glee while your kings and queens fought for ten

decades for the gods they made

Esus4 E                            D               A/C#             E           Esus4    E

I shouted out, « Who killed the Kennedys? » when after all it was you and me

   D              A/C# A                 E   Esus  E

Let me please introduce myself I’m a man   of wealth and taste

      D                   A/C#                          E        Esus4   E 

And I laid traps for troubadours who get killed before they reached Bombay

B                                     A E       Esus4   E    

Pleased to meet you, hope you guess my name,   Oh      yeah

    B                E/B B           A   E    A/E    E

But what’s puzzling you, is the nature of my game Well get down

 

SOLO

B                    A E

Hope you guessed my name

  B                  E/B           A  E     E/A   E

But what’s confusing you is just the nature of my game

    D            A/C# A                 E

Just as every cop is a criminal and all    the sinners saints

A  E                          D                        A/C# A                E

As heads is tails just call me Lucifer ’cause I’m in need   of some restraint

A    E                     D               A/C#    A            E      

So if you meet me, have some courtesy have some sympathy and some taste

        D                  A/C#  A          E   Esus4   E

Use all your well-learned politesse or I’ll lay your soul to waste

B                     E/B 

Pleased to meet you      Hope you guessed my name, um yeah

B                   A E     A/E    E

hope you guessed my name

  B                  E/B            A  E     E/A   E

But what’s puzzling you is just the nature of my game

E7           D             A7/C#      A          E7

1er solo de Keith Richards (voir vidéo ci-dessous)
 E A/E E D G/D D 
|-----------12-----------------|----------------------------|
|-------------15p12------------|----------------------------|
|-------------------14Brp12----|----------------------------|
|--------------------------14~~|~~~~~~~~~~~~~~~~~~~~~~~~~~~~|
|------------------------------|----------------------------|
|------------------------------|----------------------------|

 A/C# D/A A E7 A/E E 
|-----------12-----------------|----------------------------|
|-------------15p12------------|----------------------------|
|-------------------14Brp12----|------------------12-14-14B-|
|--------------------------14--|---------------14-----------|
|------------------------------|----------------------------|
|------------------------------|----------------------------|
 E7 A/E E D7 G/D D
|------------------------------|----------------------------|
|--------------------------15B-|----------------------------|
|--------------------12-14-----|--------REST----------------|
|-----------------14-----------|----------------------------|
|------------------------------|----------------------------|
|------------------------------|----------------------------|

 A7/C# D/A A E7 A/E E 
|-17B------17~~~~~~~~-15b------|----------------------------|
|------------------------------|-17~~~~~--------------------|
|------------------------------|----------------------------|
|------------------------------|----------------------------|
|------------------------------|----------------------------|
|------------------------------|----------------------------|
 E7 A/E E D7 G/D D 
|--17p15--17--17p15-17-15------|------15-17--17B-r-15-17p15-|
|-------17-----------------17--|15h17---------------------17|
|------------------------------|----------------------------|
|------------------------------|----------------------------|
|------------------------------|----------------------------|
|------------------------------|----------------------------|

 A7/C# D/A A E7 A/E E
|------17B--r17-17----15-17-15b|----------------------------|
|----17------------------------|----------------17~~~~~-----|
|------------------------------|----------------------------|
|------------------------------|----------------------------|
|------------------------------|----------------------------|
|------------------------------|----------------------------|
 E7 A/E E D7 G/D D
|------------------------------|----------------------------|
|----------------17------------|------17----17-17-17--------|
|------------------------------|----------------------------|
|------------------------------|----------------------------|
|------------------------------|----------------------------|
|------------------------------|----------------------------|

 A7/C# D/A A E7 A/E E 
|------15-17-17b--17--15-17-15bb-------15-17-15p17p15-------|
|---17-------------------------|17-15-17---------------17-17|
|------------------------------|----------------------------|
|------------------------------|----------------------------|
|------------------------------|----------------------------|
|------------------------------|----------------------------|
 A/E E B E/B
                                   Pleased to meet you
|------------------------------|----------------------------|
|~~~~~~~~~~~~~~~--17~~~~~------|----------------------------|
|------------------------------|----------------------------|
|------------------------------|-14p------------------------|
|------------------------------|----------------------------|
|------------------------------|----------------------------|
Apprendre le solo de Keith Richards (Rolling Stones)

Les autres cours pour apprendre un titre des Rolling Stones à la guitare

08-janv-14 Beast of Burden – The Rolling Stones
17-déc-13 Gimme Shelter – The Rolling Stones
04-sept-13 Start me up – Rolling Stones
21-août-13 Honky Tonk Women – The Rolling Stones
21-août-13 Tumbling Dice – The Rolling Stones
14-août-13 Satisfaction – The Rolling Stones
13-août-13 Paint it black – Rolling Stones
13-août-13 Brown Sugar – The Rolling Stones
10-avr-13 Sympathy for the Devil – The Rolling Stones
10-avr-13 Paint it Black – The Rolling Stones
21-mars-13 Angie – Rolling Stones
18-mars-13 Jumpin’ Jack Flash – the Rolling Stones
04-mars-13 Wild Horses – Rolling Stones

The Rolling Stones est un groupe de rock britannique, formé en 1962 par le guitariste et leader original Brian Jones, le pianiste Ian Stewart, le chanteur Mick Jagger et le guitariste Keith Richards. Lebassiste Bill Wyman et le batteur Charlie Watts les rejoignent ensuite et complètent la formation originale. Jagger et Richards constituent rapidement un duo d’auteurs-compositeurs et prennent peu à peu la direction du groupe, en lieu et place d’un Brian Jones de plus en plus erratique. Ian Stewart, jugé peu apte à jouer les idoles des jeunes, selon les préférences de l’époque, est renvoyé du groupe en 1963, mais continuera à travailler avec les Stones comme road manager et claviériste jusqu’à son décès en 1985.

Les Rolling Stones ont publié 22 albums studio au Royaume-Uni (24 aux États-Unis), 8 albums live (9 aux États-Unis) et 32 compilations. En 2012, le groupe estime avoir vendu plus de 300 millions d’albums dans le monde. En 1971, Sticky Fingers débute une série de huit albums studio consécutifs qui atteignent la première place des hit-parades, des deux côtés de l’Atlantique. Leur dernier disque original, A Bigger Bang, est sorti en 2005. Ils sont d’ailleurs le deuxième groupe à avoir eu le plus de succès dans le Billboard Hot 100, la référence des ventes de singles aux États-Unis. Les Stones ont été classés no 4 dans la liste des 100 plus grands artistes de tous les temps du magazine Rolling Stone.

Les Rolling Stones sont entrés au Rock and Roll Hall of Fame en 1989, et Mick Jagger a été anobli par la reine d’Angleterre en 2003. Leur image de « mauvais garçons » rebelles, véhiculée dans les années 1960, est une référence majeure pour les générations de musiciens rock qui les ont suivis. (Source Wikipédia)